ISO-10303-21;
HEADER;
/* Generated by software containing ST-Developer
 * from STEP Tools, Inc. (www.steptools.com) 
 */

FILE_DESCRIPTION(
/* description */ ('Zylinderrohr'),
/* implementation_level */ '2;1');

FILE_NAME(
/* name */ 
'O:\\CAD-Modelle\\2020\\Zugfedern\\Z 10 28 0450 0 1000 GZ10 GZ10 -5.st
p',
/* time_stamp */ '2020-02-10T09:14:15+01:00',
/* author */ ('DLamberti'),
/* organization */ (''),
/* preprocessor_version */ 'ST-DEVELOPER v16.1',
/* originating_system */ 'Autodesk Inventor 2016',
/* authorisation */ '');

FILE_SCHEMA (('AUTOMOTIVE_DESIGN { 1 0 10303 214 3 1 1 }'));
ENDSEC;

DATA;
#10=MECHANICAL_DESIGN_GEOMETRIC_PRESENTATION_REPRESENTATION('',(#34,#32,
#33,#35,#36,#37,#38),#477);
#11=ITEM_DEFINED_TRANSFORMATION($,$,#257,#302);
#12=ITEM_DEFINED_TRANSFORMATION($,$,#271,#303);
#13=ITEM_DEFINED_TRANSFORMATION($,$,#293,#304);
#14=(
REPRESENTATION_RELATIONSHIP($,$,#495,#498)
REPRESENTATION_RELATIONSHIP_WITH_TRANSFORMATION(#11)
SHAPE_REPRESENTATION_RELATIONSHIP()
);
#15=(
REPRESENTATION_RELATIONSHIP($,$,#496,#498)
REPRESENTATION_RELATIONSHIP_WITH_TRANSFORMATION(#12)
SHAPE_REPRESENTATION_RELATIONSHIP()
);
#16=(
REPRESENTATION_RELATIONSHIP($,$,#497,#498)
REPRESENTATION_RELATIONSHIP_WITH_TRANSFORMATION(#13)
SHAPE_REPRESENTATION_RELATIONSHIP()
);
#17=CONTEXT_DEPENDENT_SHAPE_REPRESENTATION(#14,#492);
#18=CONTEXT_DEPENDENT_SHAPE_REPRESENTATION(#15,#493);
#19=CONTEXT_DEPENDENT_SHAPE_REPRESENTATION(#16,#494);
#20=NEXT_ASSEMBLY_USAGE_OCCURRENCE('ROH_-X-00046-EM:1',
'ROH_-X-00046-EM:1','ROH_-X-00046-EM:1',#503,#500,'ROH_-X-00046-EM:1');
#21=NEXT_ASSEMBLY_USAGE_OCCURRENCE('ENG-002339:1','ENG-002339:1',
'ENG-002339:1',#503,#501,'ENG-002339:1');
#22=NEXT_ASSEMBLY_USAGE_OCCURRENCE('Gew-04:1','Gew-04:1','Gew-04:1',#503,
#502,'Gew-04:1');
#23=CONICAL_SURFACE('',#278,3.15024028905046,59.5273751625608);
#24=CONICAL_SURFACE('',#284,6.02524028905046,57.3326707109206);
#25=CONICAL_SURFACE('',#294,3.6,44.9999999999999);
#26=SHAPE_REPRESENTATION_RELATIONSHIP('SRR','None',#495,#29);
#27=SHAPE_REPRESENTATION_RELATIONSHIP('SRR','None',#496,#30);
#28=SHAPE_REPRESENTATION_RELATIONSHIP('SRR','None',#497,#31);
#29=ADVANCED_BREP_SHAPE_REPRESENTATION('',(#39),#473);
#30=ADVANCED_BREP_SHAPE_REPRESENTATION('',(#40),#474);
#31=ADVANCED_BREP_SHAPE_REPRESENTATION('',(#41),#475);
#32=STYLED_ITEM('',(#520),#39);
#33=STYLED_ITEM('',(#519),#40);
#34=STYLED_ITEM('',(#519),#250);
#35=STYLED_ITEM('',(#519),#251);
#36=STYLED_ITEM('',(#519),#252);
#37=STYLED_ITEM('',(#519),#253);
#38=STYLED_ITEM('',(#519),#41);
#39=MANIFOLD_SOLID_BREP('Volumenk\X\F6rper1',#254);
#40=MANIFOLD_SOLID_BREP('Volumenk\X\F6rper1',#255);
#41=MANIFOLD_SOLID_BREP('Volumenk\X\F6rper1',#256);
#42=TOROIDAL_SURFACE('',#262,14.25,1.25);
#43=TOROIDAL_SURFACE('',#266,14.25,1.25);
#44=TOROIDAL_SURFACE('',#288,6.97252238132084,1.4076524607392);
#45=FACE_BOUND('',#93,.T.);
#46=FACE_BOUND('',#95,.T.);
#47=FACE_BOUND('',#97,.T.);
#48=FACE_BOUND('',#99,.T.);
#49=FACE_BOUND('',#101,.T.);
#50=FACE_BOUND('',#104,.T.);
#51=FACE_BOUND('',#108,.T.);
#52=FACE_BOUND('',#110,.T.);
#53=FACE_BOUND('',#112,.T.);
#54=FACE_BOUND('',#114,.T.);
#55=FACE_BOUND('',#116,.T.);
#56=FACE_BOUND('',#118,.T.);
#57=FACE_BOUND('',#120,.T.);
#58=FACE_BOUND('',#122,.T.);
#59=FACE_BOUND('',#124,.T.);
#60=FACE_BOUND('',#126,.T.);
#61=CYLINDRICAL_SURFACE('',#260,14.0000000000002);
#62=CYLINDRICAL_SURFACE('',#264,14.);
#63=CYLINDRICAL_SURFACE('',#268,14.);
#64=CYLINDRICAL_SURFACE('',#272,5.00000000000002);
#65=CYLINDRICAL_SURFACE('',#280,4.);
#66=CYLINDRICAL_SURFACE('',#286,7.);
#67=CYLINDRICAL_SURFACE('',#290,6.99999999999999);
#68=CYLINDRICAL_SURFACE('',#297,4.);
#69=FACE_OUTER_BOUND('',#91,.T.);
#70=FACE_OUTER_BOUND('',#92,.T.);
#71=FACE_OUTER_BOUND('',#94,.T.);
#72=FACE_OUTER_BOUND('',#96,.T.);
#73=FACE_OUTER_BOUND('',#98,.T.);
#74=FACE_OUTER_BOUND('',#100,.T.);
#75=FACE_OUTER_BOUND('',#102,.T.);
#76=FACE_OUTER_BOUND('',#103,.T.);
#77=FACE_OUTER_BOUND('',#105,.T.);
#78=FACE_OUTER_BOUND('',#106,.T.);
#79=FACE_OUTER_BOUND('',#107,.T.);
#80=FACE_OUTER_BOUND('',#109,.T.);
#81=FACE_OUTER_BOUND('',#111,.T.);
#82=FACE_OUTER_BOUND('',#113,.T.);
#83=FACE_OUTER_BOUND('',#115,.T.);
#84=FACE_OUTER_BOUND('',#117,.T.);
#85=FACE_OUTER_BOUND('',#119,.T.);
#86=FACE_OUTER_BOUND('',#121,.T.);
#87=FACE_OUTER_BOUND('',#123,.T.);
#88=FACE_OUTER_BOUND('',#125,.T.);
#89=FACE_OUTER_BOUND('',#127,.T.);
#90=FACE_OUTER_BOUND('',#128,.T.);
#91=EDGE_LOOP('',(#186));
#92=EDGE_LOOP('',(#187));
#93=EDGE_LOOP('',(#188));
#94=EDGE_LOOP('',(#189));
#95=EDGE_LOOP('',(#190));
#96=EDGE_LOOP('',(#191));
#97=EDGE_LOOP('',(#192));
#98=EDGE_LOOP('',(#193));
#99=EDGE_LOOP('',(#194));
#100=EDGE_LOOP('',(#195));
#101=EDGE_LOOP('',(#196));
#102=EDGE_LOOP('',(#197));
#103=EDGE_LOOP('',(#198));
#104=EDGE_LOOP('',(#199));
#105=EDGE_LOOP('',(#200));
#106=EDGE_LOOP('',(#201));
#107=EDGE_LOOP('',(#202));
#108=EDGE_LOOP('',(#203));
#109=EDGE_LOOP('',(#204));
#110=EDGE_LOOP('',(#205));
#111=EDGE_LOOP('',(#206));
#112=EDGE_LOOP('',(#207));
#113=EDGE_LOOP('',(#208));
#114=EDGE_LOOP('',(#209));
#115=EDGE_LOOP('',(#210));
#116=EDGE_LOOP('',(#211));
#117=EDGE_LOOP('',(#212));
#118=EDGE_LOOP('',(#213));
#119=EDGE_LOOP('',(#214));
#120=EDGE_LOOP('',(#215));
#121=EDGE_LOOP('',(#216));
#122=EDGE_LOOP('',(#217));
#123=EDGE_LOOP('',(#218));
#124=EDGE_LOOP('',(#219));
#125=EDGE_LOOP('',(#220));
#126=EDGE_LOOP('',(#221));
#127=EDGE_LOOP('',(#222));
#128=EDGE_LOOP('',(#223));
#129=CIRCLE('',#259,14.0000000000002);
#130=CIRCLE('',#261,14.0000000000002);
#131=CIRCLE('',#263,14.);
#132=CIRCLE('',#265,14.);
#133=CIRCLE('',#267,14.);
#134=CIRCLE('',#269,14.);
#135=CIRCLE('',#273,5.00000000000005);
#136=CIRCLE('',#274,4.99999999999999);
#137=CIRCLE('',#277,2.30048057810091);
#138=CIRCLE('',#279,4.);
#139=CIRCLE('',#281,4.);
#140=CIRCLE('',#283,5.05048057810091);
#141=CIRCLE('',#285,7.);
#142=CIRCLE('',#287,7.);
#143=CIRCLE('',#289,6.99999999999999);
#144=CIRCLE('',#291,6.99999999999999);
#145=CIRCLE('',#295,4.);
#146=CIRCLE('',#296,3.2);
#147=CIRCLE('',#298,4.);
#148=VERTEX_POINT('',#403);
#149=VERTEX_POINT('',#406);
#150=VERTEX_POINT('',#409);
#151=VERTEX_POINT('',#412);
#152=VERTEX_POINT('',#415);
#153=VERTEX_POINT('',#418);
#154=VERTEX_POINT('',#423);
#155=VERTEX_POINT('',#425);
#156=VERTEX_POINT('',#429);
#157=VERTEX_POINT('',#432);
#158=VERTEX_POINT('',#435);
#159=VERTEX_POINT('',#438);
#160=VERTEX_POINT('',#441);
#161=VERTEX_POINT('',#444);
#162=VERTEX_POINT('',#447);
#163=VERTEX_POINT('',#450);
#164=VERTEX_POINT('',#455);
#165=VERTEX_POINT('',#457);
#166=VERTEX_POINT('',#460);
#167=EDGE_CURVE('',#148,#148,#129,.T.);
#168=EDGE_CURVE('',#149,#149,#130,.T.);
#169=EDGE_CURVE('',#150,#150,#131,.T.);
#170=EDGE_CURVE('',#151,#151,#132,.T.);
#171=EDGE_CURVE('',#152,#152,#133,.T.);
#172=EDGE_CURVE('',#153,#153,#134,.T.);
#173=EDGE_CURVE('',#154,#154,#135,.T.);
#174=EDGE_CURVE('',#155,#155,#136,.T.);
#175=EDGE_CURVE('',#156,#156,#137,.T.);
#176=EDGE_CURVE('',#157,#157,#138,.T.);
#177=EDGE_CURVE('',#158,#158,#139,.T.);
#178=EDGE_CURVE('',#159,#159,#140,.T.);
#179=EDGE_CURVE('',#160,#160,#141,.T.);
#180=EDGE_CURVE('',#161,#161,#142,.T.);
#181=EDGE_CURVE('',#162,#162,#143,.T.);
#182=EDGE_CURVE('',#163,#163,#144,.T.);
#183=EDGE_CURVE('',#164,#164,#145,.T.);
#184=EDGE_CURVE('',#165,#165,#146,.T.);
#185=EDGE_CURVE('',#166,#166,#147,.T.);
#186=ORIENTED_EDGE('',*,*,#167,.F.);
#187=ORIENTED_EDGE('',*,*,#168,.F.);
#188=ORIENTED_EDGE('',*,*,#167,.T.);
#189=ORIENTED_EDGE('',*,*,#169,.F.);
#190=ORIENTED_EDGE('',*,*,#168,.T.);
#191=ORIENTED_EDGE('',*,*,#170,.F.);
#192=ORIENTED_EDGE('',*,*,#169,.T.);
#193=ORIENTED_EDGE('',*,*,#171,.F.);
#194=ORIENTED_EDGE('',*,*,#170,.T.);
#195=ORIENTED_EDGE('',*,*,#172,.F.);
#196=ORIENTED_EDGE('',*,*,#171,.T.);
#197=ORIENTED_EDGE('',*,*,#172,.T.);
#198=ORIENTED_EDGE('',*,*,#173,.F.);
#199=ORIENTED_EDGE('',*,*,#174,.T.);
#200=ORIENTED_EDGE('',*,*,#173,.T.);
#201=ORIENTED_EDGE('',*,*,#175,.F.);
#202=ORIENTED_EDGE('',*,*,#176,.F.);
#203=ORIENTED_EDGE('',*,*,#175,.T.);
#204=ORIENTED_EDGE('',*,*,#177,.F.);
#205=ORIENTED_EDGE('',*,*,#176,.T.);
#206=ORIENTED_EDGE('',*,*,#178,.F.);
#207=ORIENTED_EDGE('',*,*,#177,.T.);
#208=ORIENTED_EDGE('',*,*,#179,.F.);
#209=ORIENTED_EDGE('',*,*,#178,.T.);
#210=ORIENTED_EDGE('',*,*,#180,.F.);
#211=ORIENTED_EDGE('',*,*,#179,.T.);
#212=ORIENTED_EDGE('',*,*,#181,.F.);
#213=ORIENTED_EDGE('',*,*,#180,.T.);
#214=ORIENTED_EDGE('',*,*,#182,.F.);
#215=ORIENTED_EDGE('',*,*,#181,.T.);
#216=ORIENTED_EDGE('',*,*,#182,.T.);
#217=ORIENTED_EDGE('',*,*,#174,.F.);
#218=ORIENTED_EDGE('',*,*,#183,.T.);
#219=ORIENTED_EDGE('',*,*,#184,.T.);
#220=ORIENTED_EDGE('',*,*,#185,.T.);
#221=ORIENTED_EDGE('',*,*,#183,.F.);
#222=ORIENTED_EDGE('',*,*,#184,.F.);
#223=ORIENTED_EDGE('',*,*,#185,.F.);
#224=PLANE('',#258);
#225=PLANE('',#270);
#226=PLANE('',#275);
#227=PLANE('',#276);
#228=PLANE('',#282);
#229=PLANE('',#292);
#230=PLANE('',#299);
#231=PLANE('',#300);
#232=ADVANCED_FACE('',(#69),#224,.T.);
#233=ADVANCED_FACE('',(#70,#45),#61,.T.);
#234=ADVANCED_FACE('',(#71,#46),#42,.F.);
#235=ADVANCED_FACE('',(#72,#47),#62,.T.);
#236=ADVANCED_FACE('',(#73,#48),#43,.F.);
#237=ADVANCED_FACE('',(#74,#49),#63,.T.);
#238=ADVANCED_FACE('',(#75),#225,.T.);
#239=ADVANCED_FACE('',(#76,#50),#64,.T.);
#240=ADVANCED_FACE('',(#77),#226,.T.);
#241=ADVANCED_FACE('',(#78),#227,.T.);
#242=ADVANCED_FACE('',(#79,#51),#23,.T.);
#243=ADVANCED_FACE('',(#80,#52),#65,.T.);
#244=ADVANCED_FACE('',(#81,#53),#228,.T.);
#245=ADVANCED_FACE('',(#82,#54),#24,.T.);
#246=ADVANCED_FACE('',(#83,#55),#66,.T.);
#247=ADVANCED_FACE('',(#84,#56),#44,.F.);
#248=ADVANCED_FACE('',(#85,#57),#67,.T.);
#249=ADVANCED_FACE('',(#86,#58),#229,.T.);
#250=ADVANCED_FACE('',(#87,#59),#25,.T.);
#251=ADVANCED_FACE('',(#88,#60),#68,.T.);
#252=ADVANCED_FACE('',(#89),#230,.T.);
#253=ADVANCED_FACE('',(#90),#231,.T.);
#254=CLOSED_SHELL('',(#232,#233,#234,#235,#236,#237,#238));
#255=CLOSED_SHELL('',(#239,#240,#241,#242,#243,#244,#245,#246,#247,#248,
#249));
#256=CLOSED_SHELL('',(#250,#251,#252,#253));
#257=AXIS2_PLACEMENT_3D('placement',#401,#305,#306);
#258=AXIS2_PLACEMENT_3D('',#402,#307,#308);
#259=AXIS2_PLACEMENT_3D('',#404,#309,#310);
#260=AXIS2_PLACEMENT_3D('',#405,#311,#312);
#261=AXIS2_PLACEMENT_3D('',#407,#313,#314);
#262=AXIS2_PLACEMENT_3D('',#408,#315,#316);
#263=AXIS2_PLACEMENT_3D('',#410,#317,#318);
#264=AXIS2_PLACEMENT_3D('',#411,#319,#320);
#265=AXIS2_PLACEMENT_3D('',#413,#321,#322);
#266=AXIS2_PLACEMENT_3D('',#414,#323,#324);
#267=AXIS2_PLACEMENT_3D('',#416,#325,#326);
#268=AXIS2_PLACEMENT_3D('',#417,#327,#328);
#269=AXIS2_PLACEMENT_3D('',#419,#329,#330);
#270=AXIS2_PLACEMENT_3D('',#420,#331,#332);
#271=AXIS2_PLACEMENT_3D('placement',#421,#333,#334);
#272=AXIS2_PLACEMENT_3D('',#422,#335,#336);
#273=AXIS2_PLACEMENT_3D('',#424,#337,#338);
#274=AXIS2_PLACEMENT_3D('',#426,#339,#340);
#275=AXIS2_PLACEMENT_3D('',#427,#341,#342);
#276=AXIS2_PLACEMENT_3D('',#428,#343,#344);
#277=AXIS2_PLACEMENT_3D('',#430,#345,#346);
#278=AXIS2_PLACEMENT_3D('',#431,#347,#348);
#279=AXIS2_PLACEMENT_3D('',#433,#349,#350);
#280=AXIS2_PLACEMENT_3D('',#434,#351,#352);
#281=AXIS2_PLACEMENT_3D('',#436,#353,#354);
#282=AXIS2_PLACEMENT_3D('',#437,#355,#356);
#283=AXIS2_PLACEMENT_3D('',#439,#357,#358);
#284=AXIS2_PLACEMENT_3D('',#440,#359,#360);
#285=AXIS2_PLACEMENT_3D('',#442,#361,#362);
#286=AXIS2_PLACEMENT_3D('',#443,#363,#364);
#287=AXIS2_PLACEMENT_3D('',#445,#365,#366);
#288=AXIS2_PLACEMENT_3D('',#446,#367,#368);
#289=AXIS2_PLACEMENT_3D('',#448,#369,#370);
#290=AXIS2_PLACEMENT_3D('',#449,#371,#372);
#291=AXIS2_PLACEMENT_3D('',#451,#373,#374);
#292=AXIS2_PLACEMENT_3D('',#452,#375,#376);
#293=AXIS2_PLACEMENT_3D('placement',#453,#377,#378);
#294=AXIS2_PLACEMENT_3D('',#454,#379,#380);
#295=AXIS2_PLACEMENT_3D('',#456,#381,#382);
#296=AXIS2_PLACEMENT_3D('',#458,#383,#384);
#297=AXIS2_PLACEMENT_3D('',#459,#385,#386);
#298=AXIS2_PLACEMENT_3D('',#461,#387,#388);
#299=AXIS2_PLACEMENT_3D('',#462,#389,#390);
#300=AXIS2_PLACEMENT_3D('',#463,#391,#392);
#301=AXIS2_PLACEMENT_3D('placement',#464,#393,#394);
#302=AXIS2_PLACEMENT_3D('',#465,#395,#396);
#303=AXIS2_PLACEMENT_3D('',#466,#397,#398);
#304=AXIS2_PLACEMENT_3D('',#467,#399,#400);
#305=DIRECTION('axis',(0.,0.,1.));
#306=DIRECTION('refdir',(1.,0.,0.));
#307=DIRECTION('center_axis',(-1.,-3.05835021877873E-16,0.));
#308=DIRECTION('ref_axis',(0.,0.,1.));
#309=DIRECTION('center_axis',(1.,3.05835021877873E-16,0.));
#310=DIRECTION('ref_axis',(0.,1.,0.));
#311=DIRECTION('center_axis',(1.,3.05835021877873E-16,0.));
#312=DIRECTION('ref_axis',(0.,1.,0.));
#313=DIRECTION('center_axis',(1.,3.05835021877873E-16,0.));
#314=DIRECTION('ref_axis',(0.,1.,0.));
#315=DIRECTION('center_axis',(1.,3.05835021877873E-16,0.));
#316=DIRECTION('ref_axis',(0.,0.,-1.));
#317=DIRECTION('center_axis',(1.,3.05835021877873E-16,0.));
#318=DIRECTION('ref_axis',(0.,1.,0.));
#319=DIRECTION('center_axis',(1.,3.05835021877873E-16,0.));
#320=DIRECTION('ref_axis',(0.,1.,0.));
#321=DIRECTION('center_axis',(1.,3.05835021877873E-16,0.));
#322=DIRECTION('ref_axis',(0.,1.,0.));
#323=DIRECTION('center_axis',(1.,3.05835021877873E-16,0.));
#324=DIRECTION('ref_axis',(0.,0.,-1.));
#325=DIRECTION('center_axis',(1.,3.05835021877873E-16,0.));
#326=DIRECTION('ref_axis',(0.,1.,0.));
#327=DIRECTION('center_axis',(1.,3.05835021877873E-16,0.));
#328=DIRECTION('ref_axis',(0.,1.,0.));
#329=DIRECTION('center_axis',(1.,3.05835021877873E-16,0.));
#330=DIRECTION('ref_axis',(0.,1.,0.));
#331=DIRECTION('center_axis',(1.,3.05835021877873E-16,0.));
#332=DIRECTION('ref_axis',(0.,0.,-1.));
#333=DIRECTION('axis',(0.,0.,1.));
#334=DIRECTION('refdir',(1.,0.,0.));
#335=DIRECTION('center_axis',(1.,0.,0.));
#336=DIRECTION('ref_axis',(0.,1.,0.));
#337=DIRECTION('center_axis',(1.,0.,0.));
#338=DIRECTION('ref_axis',(0.,1.,0.));
#339=DIRECTION('center_axis',(1.,0.,0.));
#340=DIRECTION('ref_axis',(0.,1.,0.));
#341=DIRECTION('center_axis',(1.,0.,0.));
#342=DIRECTION('ref_axis',(0.,0.,-1.));
#343=DIRECTION('center_axis',(-1.,0.,0.));
#344=DIRECTION('ref_axis',(0.,0.,1.));
#345=DIRECTION('center_axis',(1.,0.,0.));
#346=DIRECTION('ref_axis',(0.,1.,0.));
#347=DIRECTION('center_axis',(1.,0.,0.));
#348=DIRECTION('ref_axis',(0.,1.,0.));
#349=DIRECTION('center_axis',(1.,0.,0.));
#350=DIRECTION('ref_axis',(0.,1.,0.));
#351=DIRECTION('center_axis',(1.,0.,0.));
#352=DIRECTION('ref_axis',(0.,1.,0.));
#353=DIRECTION('center_axis',(1.,0.,0.));
#354=DIRECTION('ref_axis',(0.,1.,0.));
#355=DIRECTION('center_axis',(-1.,0.,0.));
#356=DIRECTION('ref_axis',(0.,0.,1.));
#357=DIRECTION('center_axis',(1.,0.,0.));
#358=DIRECTION('ref_axis',(0.,1.,0.));
#359=DIRECTION('center_axis',(1.,0.,0.));
#360=DIRECTION('ref_axis',(0.,1.,0.));
#361=DIRECTION('center_axis',(1.,0.,0.));
#362=DIRECTION('ref_axis',(0.,1.,0.));
#363=DIRECTION('center_axis',(1.,0.,0.));
#364=DIRECTION('ref_axis',(0.,1.,0.));
#365=DIRECTION('center_axis',(1.,0.,0.));
#366=DIRECTION('ref_axis',(0.,1.,0.));
#367=DIRECTION('center_axis',(1.,0.,0.));
#368=DIRECTION('ref_axis',(0.,0.,-1.));
#369=DIRECTION('center_axis',(1.,0.,0.));
#370=DIRECTION('ref_axis',(0.,1.,0.));
#371=DIRECTION('center_axis',(1.,0.,0.));
#372=DIRECTION('ref_axis',(0.,1.,0.));
#373=DIRECTION('center_axis',(1.,0.,0.));
#374=DIRECTION('ref_axis',(0.,1.,0.));
#375=DIRECTION('center_axis',(1.,0.,0.));
#376=DIRECTION('ref_axis',(0.,0.,-1.));
#377=DIRECTION('axis',(0.,0.,1.));
#378=DIRECTION('refdir',(1.,0.,0.));
#379=DIRECTION('center_axis',(-1.,-2.66800423566524E-16,0.));
#380=DIRECTION('ref_axis',(2.66800423566524E-16,-1.,0.));
#381=DIRECTION('center_axis',(1.,2.66800423566524E-16,0.));
#382=DIRECTION('ref_axis',(2.66800423566524E-16,-1.,0.));
#383=DIRECTION('center_axis',(-1.,-2.66800423566524E-16,0.));
#384=DIRECTION('ref_axis',(2.66800423566524E-16,-1.,0.));
#385=DIRECTION('center_axis',(1.,2.66800423566524E-16,0.));
#386=DIRECTION('ref_axis',(-2.66800423566524E-16,1.,0.));
#387=DIRECTION('center_axis',(1.,2.66800423566524E-16,0.));
#388=DIRECTION('ref_axis',(-2.66800423566524E-16,1.,0.));
#389=DIRECTION('center_axis',(1.,2.66800423566524E-16,0.));
#390=DIRECTION('ref_axis',(0.,0.,-1.));
#391=DIRECTION('center_axis',(-1.,-2.66800423566524E-16,0.));
#392=DIRECTION('ref_axis',(0.,0.,1.));
#393=DIRECTION('axis',(0.,0.,1.));
#394=DIRECTION('refdir',(1.,0.,0.));
#395=DIRECTION('',(0.,0.,1.));
#396=DIRECTION('',(1.,0.,0.));
#397=DIRECTION('',(0.,0.,1.));
#398=DIRECTION('',(1.,0.,0.));
#399=DIRECTION('',(0.,0.,1.));
#400=DIRECTION('',(1.,0.,0.));
#401=CARTESIAN_POINT('',(0.,0.,0.));
#402=CARTESIAN_POINT('Origin',(-530.,6.99999999999992,0.));
#403=CARTESIAN_POINT('',(-530.,14.,0.));
#404=CARTESIAN_POINT('Origin',(-530.,-1.62092561595273E-13,0.));
#405=CARTESIAN_POINT('Origin',(-526.862372435696,-1.61132965200499E-13,
0.));
#406=CARTESIAN_POINT('',(-523.724744871392,14.,0.));
#407=CARTESIAN_POINT('Origin',(-523.724744871392,-1.60173368805726E-13,
0.));
#408=CARTESIAN_POINT('Origin',(-522.5,-1.59872115546023E-13,0.));
#409=CARTESIAN_POINT('',(-521.275255128608,13.9999999999999,0.));
#410=CARTESIAN_POINT('Origin',(-521.275255128608,-1.59424229056652E-13,
0.));
#411=CARTESIAN_POINT('Origin',(-265.,-8.10462807976364E-14,0.));
#412=CARTESIAN_POINT('',(-8.72474487139159,14.,0.));
#413=CARTESIAN_POINT('Origin',(-8.72474487139159,-2.66833253862091E-15,
0.));
#414=CARTESIAN_POINT('Origin',(-7.5,-2.22044604925031E-15,0.));
#415=CARTESIAN_POINT('',(-6.27525512860841,14.,0.));
#416=CARTESIAN_POINT('Origin',(-6.27525512860841,-1.91919278954719E-15,
0.));
#417=CARTESIAN_POINT('Origin',(-3.1376275643042,-9.59596394773593E-16,0.));
#418=CARTESIAN_POINT('',(0.,14.,0.));
#419=CARTESIAN_POINT('Origin',(4.28169030629023E-15,1.30949084849855E-30,
0.));
#420=CARTESIAN_POINT('Origin',(0.,7.,0.));
#421=CARTESIAN_POINT('',(0.,0.,0.));
#422=CARTESIAN_POINT('Origin',(255.,0.,0.));
#423=CARTESIAN_POINT('',(480.,5.00000000000005,0.));
#424=CARTESIAN_POINT('Origin',(480.,0.,0.));
#425=CARTESIAN_POINT('',(30.,4.99999999999999,0.));
#426=CARTESIAN_POINT('Origin',(30.,0.,0.));
#427=CARTESIAN_POINT('Origin',(480.,2.50000000000002,0.));
#428=CARTESIAN_POINT('Origin',(0.,1.15024028905046,0.));
#429=CARTESIAN_POINT('',(0.,2.30048057810091,0.));
#430=CARTESIAN_POINT('Origin',(0.,0.,0.));
#431=CARTESIAN_POINT('Origin',(0.499999999999998,0.,0.));
#432=CARTESIAN_POINT('',(1.,4.,0.));
#433=CARTESIAN_POINT('Origin',(1.,0.,0.));
#434=CARTESIAN_POINT('Origin',(5.5,0.,0.));
#435=CARTESIAN_POINT('',(10.,4.,0.));
#436=CARTESIAN_POINT('Origin',(10.,0.,0.));
#437=CARTESIAN_POINT('Origin',(10.,4.52524028905046,0.));
#438=CARTESIAN_POINT('',(10.,5.05048057810091,0.));
#439=CARTESIAN_POINT('Origin',(10.,0.,0.));
#440=CARTESIAN_POINT('Origin',(10.625,0.,0.));
#441=CARTESIAN_POINT('',(11.25,7.,0.));
#442=CARTESIAN_POINT('Origin',(11.25,0.,0.));
#443=CARTESIAN_POINT('Origin',(16.9213078743696,0.,0.));
#444=CARTESIAN_POINT('',(22.5926157487392,7.,0.));
#445=CARTESIAN_POINT('Origin',(22.5926157487392,0.,0.));
#446=CARTESIAN_POINT('Origin',(24.,0.,0.));
#447=CARTESIAN_POINT('',(25.4073842512608,6.99999999999999,0.));
#448=CARTESIAN_POINT('Origin',(25.4073842512608,0.,0.));
#449=CARTESIAN_POINT('Origin',(27.7036921256304,0.,0.));
#450=CARTESIAN_POINT('',(30.,6.99999999999999,0.));
#451=CARTESIAN_POINT('Origin',(30.,0.,0.));
#452=CARTESIAN_POINT('Origin',(30.,5.99999999999999,0.));
#453=CARTESIAN_POINT('',(0.,0.,0.));
#454=CARTESIAN_POINT('Origin',(9.6,2.56128406623863E-15,0.));
#455=CARTESIAN_POINT('',(9.2,4.,4.89858719658941E-16));
#456=CARTESIAN_POINT('Origin',(9.2,2.45456389681202E-15,0.));
#457=CARTESIAN_POINT('',(10.,3.2,-3.91886975727153E-16));
#458=CARTESIAN_POINT('Origin',(10.,2.66800423566524E-15,0.));
#459=CARTESIAN_POINT('Origin',(5.,1.33400211783262E-15,0.));
#460=CARTESIAN_POINT('',(0.,4.,0.));
#461=CARTESIAN_POINT('Origin',(1.11022302462516E-15,4.93038065763132E-31,
0.));
#462=CARTESIAN_POINT('Origin',(10.,2.,0.));
#463=CARTESIAN_POINT('Origin',(0.,2.,0.));
#464=CARTESIAN_POINT('',(0.,0.,0.));
#465=CARTESIAN_POINT('',(0.,0.,0.));
#466=CARTESIAN_POINT('',(-560.,-1.65140565290948E-13,0.));
#467=CARTESIAN_POINT('',(0.,-9.70751737958863E-18,0.));
#468=UNCERTAINTY_MEASURE_WITH_UNIT(LENGTH_MEASURE(0.01),#478,
'DISTANCE_ACCURACY_VALUE',
'Maximum model space distance between geometric entities at asserted c
onnectivities');
#469=UNCERTAINTY_MEASURE_WITH_UNIT(LENGTH_MEASURE(0.01),#478,
'DISTANCE_ACCURACY_VALUE',
'Maximum model space distance between geometric entities at asserted c
onnectivities');
#470=UNCERTAINTY_MEASURE_WITH_UNIT(LENGTH_MEASURE(0.01),#478,
'DISTANCE_ACCURACY_VALUE',
'Maximum model space distance between geometric entities at asserted c
onnectivities');
#471=UNCERTAINTY_MEASURE_WITH_UNIT(LENGTH_MEASURE(0.01),#478,
'DISTANCE_ACCURACY_VALUE',
'Maximum model space distance between geometric entities at asserted c
onnectivities');
#472=UNCERTAINTY_MEASURE_WITH_UNIT(LENGTH_MEASURE(1.E-6),#478,
'DISTANCE_ACCURACY_VALUE',
'Maximum model space distance between geometric entities at asserted c
onnectivities');
#473=(
GEOMETRIC_REPRESENTATION_CONTEXT(3)
GLOBAL_UNCERTAINTY_ASSIGNED_CONTEXT((#468))
GLOBAL_UNIT_ASSIGNED_CONTEXT((#478,#481,#479))
REPRESENTATION_CONTEXT('','3D')
);
#474=(
GEOMETRIC_REPRESENTATION_CONTEXT(3)
GLOBAL_UNCERTAINTY_ASSIGNED_CONTEXT((#469))
GLOBAL_UNIT_ASSIGNED_CONTEXT((#478,#481,#479))
REPRESENTATION_CONTEXT('','3D')
);
#475=(
GEOMETRIC_REPRESENTATION_CONTEXT(3)
GLOBAL_UNCERTAINTY_ASSIGNED_CONTEXT((#470))
GLOBAL_UNIT_ASSIGNED_CONTEXT((#478,#481,#479))
REPRESENTATION_CONTEXT('','3D')
);
#476=(
GEOMETRIC_REPRESENTATION_CONTEXT(3)
GLOBAL_UNCERTAINTY_ASSIGNED_CONTEXT((#471))
GLOBAL_UNIT_ASSIGNED_CONTEXT((#478,#481,#479))
REPRESENTATION_CONTEXT('','3D')
);
#477=(
GEOMETRIC_REPRESENTATION_CONTEXT(3)
GLOBAL_UNCERTAINTY_ASSIGNED_CONTEXT((#472))
GLOBAL_UNIT_ASSIGNED_CONTEXT((#478,#481,#479))
REPRESENTATION_CONTEXT('','3D')
);
#478=(
LENGTH_UNIT()
NAMED_UNIT(*)
SI_UNIT(.MILLI.,.METRE.)
);
#479=(
NAMED_UNIT(*)
SI_UNIT($,.STERADIAN.)
SOLID_ANGLE_UNIT()
);
#480=DIMENSIONAL_EXPONENTS(0.,0.,0.,0.,0.,0.,0.);
#481=(
CONVERSION_BASED_UNIT('degree',#483)
NAMED_UNIT(#480)
PLANE_ANGLE_UNIT()
);
#482=(
NAMED_UNIT(*)
PLANE_ANGLE_UNIT()
SI_UNIT($,.RADIAN.)
);
#483=PLANE_ANGLE_MEASURE_WITH_UNIT(PLANE_ANGLE_MEASURE(0.01745329252),#482);
#484=SHAPE_DEFINITION_REPRESENTATION(#488,#495);
#485=SHAPE_DEFINITION_REPRESENTATION(#489,#496);
#486=SHAPE_DEFINITION_REPRESENTATION(#490,#497);
#487=SHAPE_DEFINITION_REPRESENTATION(#491,#498);
#488=PRODUCT_DEFINITION_SHAPE('',$,#500);
#489=PRODUCT_DEFINITION_SHAPE('',$,#501);
#490=PRODUCT_DEFINITION_SHAPE('',$,#502);
#491=PRODUCT_DEFINITION_SHAPE('',$,#503);
#492=PRODUCT_DEFINITION_SHAPE($,$,#20);
#493=PRODUCT_DEFINITION_SHAPE($,$,#21);
#494=PRODUCT_DEFINITION_SHAPE($,$,#22);
#495=SHAPE_REPRESENTATION('',(#257),#473);
#496=SHAPE_REPRESENTATION('',(#271),#474);
#497=SHAPE_REPRESENTATION('',(#293),#475);
#498=SHAPE_REPRESENTATION('',(#301,#302,#303,#304),#476);
#499=PRODUCT_DEFINITION_CONTEXT('part definition',#513,'design');
#500=PRODUCT_DEFINITION('ROH_-X-00046-EM','ROH_-X-00046-EM',#504,#499);
#501=PRODUCT_DEFINITION('ENG-002339','ENG-002339',#505,#499);
#502=PRODUCT_DEFINITION('Gew-04','Gew-04',#506,#499);
#503=PRODUCT_DEFINITION('Baugruppe2','Baugruppe2',#507,#499);
#504=PRODUCT_DEFINITION_FORMATION('',$,#515);
#505=PRODUCT_DEFINITION_FORMATION('',$,#516);
#506=PRODUCT_DEFINITION_FORMATION('',$,#517);
#507=PRODUCT_DEFINITION_FORMATION('',$,#518);
#508=PRODUCT_RELATED_PRODUCT_CATEGORY('ROH_-X-00046-EM',
'ROH_-X-00046-EM',(#515));
#509=PRODUCT_RELATED_PRODUCT_CATEGORY('ENG-002339','ENG-002339',(#516));
#510=PRODUCT_RELATED_PRODUCT_CATEGORY('Gew-04','Gew-04',(#517));
#511=PRODUCT_RELATED_PRODUCT_CATEGORY('Baugruppe2','Baugruppe2',(#518));
#512=APPLICATION_PROTOCOL_DEFINITION('international standard',
'automotive_design',2009,#513);
#513=APPLICATION_CONTEXT(
'Core Data for Automotive Mechanical Design Process');
#514=PRODUCT_CONTEXT('part definition',#513,'mechanical');
#515=PRODUCT('ROH_-X-00046-EM','ROH_-X-00046-EM',$,(#514));
#516=PRODUCT('ENG-002339','ENG-002339',$,(#514));
#517=PRODUCT('Gew-04','Gew-04',$,(#514));
#518=PRODUCT('Baugruppe2','Baugruppe2',$,(#514));
#519=PRESENTATION_STYLE_ASSIGNMENT((#521));
#520=PRESENTATION_STYLE_ASSIGNMENT((#522));
#521=SURFACE_STYLE_USAGE(.BOTH.,#523);
#522=SURFACE_STYLE_USAGE(.BOTH.,#524);
#523=SURFACE_SIDE_STYLE('',(#525));
#524=SURFACE_SIDE_STYLE('',(#526));
#525=SURFACE_STYLE_FILL_AREA(#527);
#526=SURFACE_STYLE_FILL_AREA(#528);
#527=FILL_AREA_STYLE('',(#529));
#528=FILL_AREA_STYLE('',(#530));
#529=FILL_AREA_STYLE_COLOUR('',#531);
#530=FILL_AREA_STYLE_COLOUR('',#532);
#531=COLOUR_RGB('',0.63921568627451,0.63921568627451,0.686274509803922);
#532=COLOUR_RGB('',0.32156862745098,0.32156862745098,0.32156862745098);
ENDSEC;
END-ISO-10303-21;
